viernes, 9 de noviembre de 2012

Mechita (vals peruano) - Acordes y tablatura



Mechita
Vals peruano

Manuel Raygada
Intérprete: Fiesta Criolla

Intro
E-----13----12----10-9----12-9-----12-9----9-10--------------
B-/10----10----10------10-------10------10------10----10-----
G--------------------------------------------------10----10--
D------------------------------------------------------------
A------------------------------------------------------------
E------------------------------------------------------------

E----10----10----10-----10------10--------10-------10--8----
B-11----11----11----11----11-------11~-------11-------10---
G----------------------------12--------12-------12------
D-----------------------------------------------------------
A-----------------------------------------------------------
E-----------------------------------------------------------

E-----13----12----10-9----12-9-----12-9----9-10--10-12-13-10--
B-/10----10----10------10-------10------10-------11-11-11-11--
G-------------------------------------------------------------
D-------------------------------------------------------------
A-------------------------------------------------------------
E-------------------------------------------------------------

E---8~------7--7---9---9--10--10-
B--11~-8--8-9--9--10--10--10--10-
G------8--8-------------------10-
D--------------------------------
A--------------------------------
E--------------------------------

Tema 
                  A7                    Dm
Mechita de mis ensueños, muñequita seductora
                 C                         F
tu juventud atesora todo un mundo de esplendor,
                  D7                        Gm
el misterio de tus ojos ha turbado toda mi calma
                  Bb7                    A7
y hace nacer en mi alma una esperanza de amor. (2 veces)


Coro
             A7
Mechita eres linda, tus ojos,
               Dm
tus ojos me fascinan, tu boca,
              C
tu boquita divina, quisiera,
              F
quisiera yo besar.


                A7
Mechita tú bien sabes, lo mucho,
                Dm
lo mucho que te quiero, por eso,
             F         A7            Dm
por eso te ruego, no me hagas sufrir más.


(Repetir Todo desde el Intro).

--------------------------------------------
Fiesta Criolla
Notas:
A = La
B = Sí
C = Do
D = Re
E = Mí
F = Fa
G = Sol


Aquí el video con la música:


No hay comentarios:

Publicar un comentario en la entrada

Yo opino que...