domingo, 25 de noviembre de 2012

Marinera Limeña - Gustavo Urbina - Tablatura y acordes


Aguardiente y Vino Puro
Marinera Limeña

Compositor: Gustavo Urbina
Intérprete: Gustavo Urbina
Intro
e-----------------------------------------------------------------------------
B-----------------------------------------------------------------------------
G-7-5-3-5-7-5-3-7-5-3---------------------8-7-5-7-8-7-5-8-7-5-----------------
D---------------------7-5-4-5-4----4-/7-----------------------8-7-8-7-5-4-5---
A------------------------------6-5-----------------------------------------5--
E---------------------------------------------------------------------------6-


e-----------------------------------------------------------------------------
B-----------------------------------------------------------------------------
G-7-5-3-5-7-5-3-7-5-3---------------------8-7-5-7-8-7-5-8-7-5-----------------
D---------------------7-5-4-5-4----4-/7-----------------------8-7-8-7-5-4-5---
A------------------------------6-5-----------------------------------------5--
E---------------------------------------------------------------------------6-

                                   Gm   F     Eb    D    C    D
e-------------------------------------3----1-----3-----3----0----2--2---2--2-
B-------------------------------------3----1-----4-----3----1----3--3---3--3-
G-------------------------------------3----1-----3-----2----0----2--2---2--2-
D-4--5---------4--7--------4-5--------5----3-----5---0------2--0------0------
A------5-----5------5---5------5------5----3---7----------3------------------
E--------6-----------------------6--3----1-----------------------------------

Gm

Gm                 Cm
Aguardiente y vino puro
Eb           Bb             D        Gm      
Ayayay dicen las dicen las antiguas leyes
Cm           Bb             D        Gm 
Ayayay dicen las dicen las antiguas leyes

Gm                          Cm
Morenita agua que toman los bueyes
Eb           Bb                   D      Gm      
Ayayay que tienen que tienen el cuello duro
Cm           Bb                   D      Gm 
Ayayay aguardiente, aguardiente y vino puro

Gm                           Cm
Once las letras son del aguardiente
Eb               Bb              D     Gm      
Ya lo sabe el curioso, ayayay impertinente
Cm              Bb               D      Gm 
Once las letras son, ayayay del aguardiente

Gm                             Cm
Del aguardiente padre, si lo tomaras
Eb              Bb               D      Gm      
La garganta del pecho, ayayay se te secara
Cm            Bb            D       Gm 
Rico, rico riquito ayayay abre tu pico

Rsbalosa
e----3---3---2------
B----3---3---3------
G-------------------
D----------------0--
A----------3--------
E--3---6-------2----


Gm                                       D 
De lo aires naturales de la América del Sur
                                            Gm
no hay como la marinera que se baila en el Perú
                                         D 
De lo aires nacionales de la América del Sur
                                            Gm
no hay como la marinera que se baila en el Perú
           F          Bb        F                 Bb
Tiempla un zambo la guitarra, o dobla, dobla el cajón
           F          Bb        F                 Bb
Tiempla un zambo la guitarra, o dobla, dobla el cajón
                    Gm         D       Gm
Y a voz en cuello reclama agua pa la caballada
                    Bb         D      Gm
Y a voz en cuello reclama agua pa la ca… pa la caballada ay, sí

e----3---3---2------
B----3---3---3------
G-------------------
D----------------0--
A----------3--------
E--3---6-------2----

                  Eb            F           Bb       
Mándame quitar la vida si es delito el adorarte
                    D                    Gm
Pobre soy porque no tengo la dicha del poderoso
                  Bb              D        Gm
Como amante soy dichoso, y en mi dicha me mantengo
                    D                    Gm
Pobre soy porque no tengo la dicha del poderoso
                  Bb              D        Gm
Como amante soy dichoso, y en mi dicha me mantengo
                   Eb         F      Bb
Malaya, quién dijo amor, cómo no dijo veneno
             D                   Gm
Tiéndeme la cama, arregla el colchón
             Bb            D        Gm
Luego tú me pasas mi rico pan de Guatemala
             D                   Gm
Tiéndeme la cama, arregla el colchón
             Bb            D       
Luego tú me pasas mi rico pan de Gua…
                     Gm
Que lloré, lloraba zamba…


Nota:
Tuve la suerte de oír esta marinera el año 2005 gracias mi gran amigo José Carlos Agüero, y ha sido gracias a ella que ahora estoy transcribiendo estas versiones de guitarra criolla.

Plagada de frases ingeniosas gritadas a voz en cuello en muchas resbalosas, esta bella marinera limeña ha sido sacada en cueca por un dúo de chicas chilenas con bastante éxito, y no es para menos.

Hasta donde sé, se llama Marinera Limeña, pero he visto que las mozas chilenas la llaman aguardiente y vino puro, y bueno, ese nombre le pongo para que sea fácilmente ubicable.



No hay comentarios:

Publicar un comentario en la entrada

Yo opino que...