domingo, 29 de julio de 2012

Cinco formas de acompañar un vals peruano en guitarra


Sin duda hay muchas formas de acompañar, técnicamente hablando, un vals peruano a ritmo de 3/4, pero aquí coloco algunas muy usuales que nos pueden ayudar a darle color a lo que tocamos.

Patrón 1 F#m   Bm           C#7
e----2--2----2--2-----2--2-------2--2-------4--4------4--4------2--
B----2--2----2--2-----3--3-------3--3-------6--6------6--6------2--
C----2--2----2--2-----4--4-------4--4-------4--4------4--4------2--
D---------------------------4---------------------6-------------4--
A---------4--------2----------------------4---------------------4--
E--2------------------------------------------------------------2--

Patrón 2 F#m   Bm           C#7
e----2-----------2-----------2----------3----------4---------4---------2
B----2--2--2-----2--2--2-----3--3--3----3--3--3----6--6--6---6--6--6---2
C-------2--2--------2--2--------4--4-------4--4-------4--4------4--4---2
D----------------------------------------------------------------------4
A-------------------------2-----------2----------4---------4-----------4
E--2----------2--------------------------------------------------------2

Patrón 3 Mismos acordes                                      
e-----------2--------------2--------------2--------------2------
B----2------2--2----2------2--2----3------3--3----3------3--3---
C----2--2------2----2--2------2----4--4------4----4--4------4---
D-------4--------------4--------------4--------------4----------
A-------------------------------2--------2------2------2--------
E--2------2------2-------2--------------------------------------

e------------4--------------4------2-
B-----6------6--6----6------6--6---2-
C-----4--4------4----4--4------4---2-
D--------6--------------6----------4-
A--4-------4------4-------4--------4-
E----------------------------------2-

Patrón 4 (Repetir secuencia de acordes anterior)
e--------------------2---
B-----2--2----2---2--2---
C-----2--2----2---2------
D------------------------
A------------------------
E--2--------2---2--------

Patrón 5 (Repetir secuencia de acordes anterior)

e----2---------2----
B--2-----2---2------
C--2-----2---2------
D-------------------
A-------------------
E------2---2-----2--





video


2 comentarios:

  1. Muy bueno tu blog.
    Recién lo encuentro y se ve bastante útil.
    Lo que no encuentro es un buscador, a ver si lo puedes implementar.

    Saludos,

    jormun

    ResponderEliminar

Yo opino que...